  0
SECTION
  2
HEADER
  9
$ACADVER
  1
AC1015
  9
$ACADMAINTVER
 70
     6
  9
$DWGCODEPAGE
  3
ANSI_1254
  9
$INSBASE
 10
0.0
 20
0.0
 30
0.0
  9
$EXTMIN
 10
0.0
 20
0.0
 30
0.0
  9
$EXTMAX
 10
279.4
 20
215.9
 30
0.0
  9
$LIMMIN
 10
0.0
 20
0.0
  9
$LIMMAX
 10
279.4
 20
215.9
  9
$ORTHOMODE
 70
     0
  9
$REGENMODE
 70
     1
  9
$FILLMODE
 70
     1
  9
$QTEXTMODE
 70
     0
  9
$MIRRTEXT
 70
     1
  9
$LTSCALE
 40
1.0
  9
$ATTMODE
 70
     1
  9
$TEXTSIZE
 40
3.5
  9
$TRACEWID
 40
1.0
  9
$TEXTSTYLE
  7
Standard
  9
$CLAYER
  8
0
  9
$CELTYPE
  6
ByLayer
  9
$CECOLOR
 62
   256
  9
$CELTSCALE
 40
1.0
  9
$DISPSILH
 70
     0
  9
$DIMSCALE
 40
1.0
  9
$DIMASZ
 40
3.5
  9
$DIMEXO
 40
1.0
  9
$DIMDLI
 40
3.75
  9
$DIMRND
 40
0.0
  9
$DIMDLE
 40
0.0
  9
$DIMEXE
 40
1.0
  9
$DIMTP
 40
0.0
  9
$DIMTM
 40
0.0
  9
$DIMTXT
 40
3.5
  9
$DIMCEN
 40
2.5
  9
$DIMTSZ
 40
0.0
  9
$DIMTOL
 70
     0
  9
$DIMLIM
 70
     0
  9
$DIMTIH
 70
     1
  9
$DIMTOH
 70
     1
  9
$DIMSE1
 70
     0
  9
$DIMSE2
 70
     0
  9
$DIMTAD
 70
     1
  9
$DIMZIN
 70
     0
  9
$DIMBLK
  1

  9
$DIMASO
 70
     1
  9
$DIMSHO
 70
     1
  9
$DIMPOST
  1

  9
$DIMAPOST
  1

  9
$DIMALT
 70
     0
  9
$DIMALTD
 70
     3
  9
$DIMALTF
 40
0.0393700787
  9
$DIMLFAC
 40
1.0
  9
$DIMTOFL
 70
     1
  9
$DIMTVP
 40
0.0
  9
$DIMTIX
 70
     0
  9
$DIMSOXD
 70
     0
  9
$DIMSAH
 70
     0
  9
$DIMBLK1
  1

  9
$DIMBLK2
  1

  9
$DIMSTYLE
  2
ISO-25
  9
$DIMCLRD
 70
     0
  9
$DIMCLRE
 70
     0
  9
$DIMCLRT
 70
     0
  9
$DIMTFAC
 40
1.0
  9
$DIMGAP
 40
1.524
  9
$DIMJUST
 70
     0
  9
$DIMSD1
 70
     0
  9
$DIMSD2
 70
     0
  9
$DIMTOLJ
 70
     0
  9
$DIMTZIN
 70
     0
  9
$DIMALTZ
 70
     0
  9
$DIMALTTZ
 70
     0
  9
$DIMUPT
 70
     0
  9
$DIMDEC
 70
     2
  9
$DIMTDEC
 70
     2
  9
$DIMALTU
 70
     2
  9
$DIMALTTD
 70
     3
  9
$DIMTXSTY
  7
Standard
  9
$DIMAUNIT
 70
     0
  9
$DIMADEC
 70
     2
  9
$DIMALTRND
 40
0.0
  9
$DIMAZIN
 70
     0
  9
$DIMDSEP
 70
    44
  9
$DIMATFIT
 70
     3
  9
$DIMFRAC
 70
     0
  9
$DIMLDRBLK
  1

  9
$DIMLUNIT
 70
     2
  9
$DIMLWD
 70
    -2
  9
$DIMLWE
 70
    -2
  9
$DIMTMOVE
 70
     0
  9
$LUNITS
 70
     2
  9
$LUPREC
 70
     2
  9
$SKETCHINC
 40
1.0
  9
$FILLETRAD
 40
10.0
  9
$AUNITS
 70
     0
  9
$AUPREC
 70
     2
  9
$MENU
  1
.
  9
$ELEVATION
 40
0.0
  9
$PELEVATION
 40
0.0
  9
$THICKNESS
 40
0.0
  9
$LIMCHECK
 70
     0
  9
$CHAMFERA
 40
0.0
  9
$CHAMFERB
 40
0.0
  9
$CHAMFERC
 40
0.0
  9
$CHAMFERD
 40
0.0
  9
$SKPOLY
 70
     0
  9
$TDCREATE
 40
2458985.646413357
  9
$TDUCREATE
 40
2458985.521413357
  9
$TDUPDATE
 40
2458985.646413588
  9
$TDUUPDATE
 40
2458985.521413588
  9
$TDINDWG
 40
0.0000000116
  9
$TDUSRTIMER
 40
0.0000000116
  9
$USRTIMER
 70
     1
  9
$ANGBASE
 50
0.0
  9
$ANGDIR
 70
     0
  9
$PDMODE
 70
     0
  9
$PDSIZE
 40
-1.0
  9
$PLINEWID
 40
0.0
  9
$SPLFRAME
 70
     0
  9
$SPLINETYPE
 70
     6
  9
$SPLINESEGS
 70
     8
  9
$HANDSEED
  5
C2
  9
$SURFTAB1
 70
     6
  9
$SURFTAB2
 70
     6
  9
$SURFTYPE
 70
     6
  9
$SURFU
 70
     6
  9
$SURFV
 70
     6
  9
$UCSBASE
  2

  9
$UCSNAME
  2

  9
$UCSORG
 10
0.0
 20
0.0
 30
0.0
  9
$UCSXDIR
 10
1.0
 20
0.0
 30
0.0
  9
$UCSYDIR
 10
0.0
 20
1.0
 30
0.0
  9
$UCSORTHOREF
  2

  9
$UCSORTHOVIEW
 70
     0
  9
$UCSORGTOP
 10
0.0
 20
0.0
 30
0.0
  9
$UCSORGBOTTOM
 10
0.0
 20
0.0
 30
0.0
  9
$UCSORGLEFT
 10
0.0
 20
0.0
 30
0.0
  9
$UCSORGRIGHT
 10
0.0
 20
0.0
 30
0.0
  9
$UCSORGFRONT
 10
0.0
 20
0.0
 30
0.0
  9
$UCSORGBACK
 10
0.0
 20
0.0
 30
0.0
  9
$PUCSBASE
  2

  9
$PUCSNAME
  2

  9
$PUCSORG
 10
0.0
 20
0.0
 30
0.0
  9
$PUCSXDIR
 10
1.0
 20
0.0
 30
0.0
  9
$PUCSYDIR
 10
0.0
 20
1.0
 30
0.0
  9
$PUCSORTHOREF
  2

  9
$PUCSORTHOVIEW
 70
     0
  9
$PUCSORGTOP
 10
0.0
 20
0.0
 30
0.0
  9
$PUCSORGBOTTOM
 10
0.0
 20
0.0
 30
0.0
  9
$PUCSORGLEFT
 10
0.0
 20
0.0
 30
0.0
  9
$PUCSORGRIGHT
 10
0.0
 20
0.0
 30
0.0
  9
$PUCSORGFRONT
 10
0.0
 20
0.0
 30
0.0
  9
$PUCSORGBACK
 10
0.0
 20
0.0
 30
0.0
  9
$USERI1
 70
     0
  9
$USERI2
 70
     0
  9
$USERI3
 70
     0
  9
$USERI4
 70
     0
  9
$USERI5
 70
     0
  9
$USERR1
 40
0.0
  9
$USERR2
 40
0.0
  9
$USERR3
 40
0.0
  9
$USERR4
 40
0.0
  9
$USERR5
 40
0.0
  9
$WORLDVIEW
 70
     1
  9
$SHADEDGE
 70
     3
  9
$SHADEDIF
 70
    70
  9
$TILEMODE
 70
     1
  9
$MAXACTVP
 70
    64
  9
$PINSBASE
 10
0.0
 20
0.0
 30
0.0
  9
$PLIMCHECK
 70
     0
  9
$PEXTMIN
 10
1.0000000000E+20
 20
1.0000000000E+20
 30
1.0000000000E+20
  9
$PEXTMAX
 10
-1.0000000000E+20
 20
-1.0000000000E+20
 30
-1.0000000000E+20
  9
$PLIMMIN
 10
0.0
 20
0.0
  9
$PLIMMAX
 10
420.0
 20
297.0
  9
$UNITMODE
 70
     0
  9
$VISRETAIN
 70
     1
  9
$PLINEGEN
 70
     0
  9
$PSLTSCALE
 70
     1
  9
$TREEDEPTH
 70
  3020
  9
$CMLSTYLE
  2
Standard
  9
$CMLJUST
 70
     0
  9
$CMLSCALE
 40
20.0
  9
$PROXYGRAPHICS
 70
     1
  9
$MEASUREMENT
 70
     1
  9
$CELWEIGHT
370
    -1
  9
$ENDCAPS
280
     0
  9
$JOINSTYLE
280
     0
  9
$LWDISPLAY
290
     1
  9
$INSUNITS
 70
     4
  9
$HYPERLINKBASE
  1

  9
$STYLESHEET
  1

  9
$XEDIT
290
     1
  9
$CEPSNTYPE
380
     0
  9
$PSTYLEMODE
290
     1
  9
$FINGERPRINTGUID
  2
{f4c31e01-32f4-4546-b6e4-44eec9721194}
  9
$VERSIONGUID
  2
{FAEB1C32-E019-11D5-929B-00C0DF256EC4}
  9
$EXTNAMES
290
     1
  9
$PSVPSCALE
 40
0.0
  9
$OLESTARTUP
290
     0
  0
ENDSEC
  0
SECTION
  2
CLASSES
  0
CLASS
  1
ACDBDICTIONARYWDFLT
  2
AcDbDictionaryWithDefault
  3
ObjectDBX Classes
 90
        0
280
     0
281
     0
  0
CLASS
  1
VISUALSTYLE
  2
AcDbVisualStyle
  3
ObjectDBX Classes
 90
     4095
280
     0
281
     0
  0
CLASS
  1
MATERIAL
  2
AcDbMaterial
  3
ObjectDBX Classes
 90
     1153
280
     0
281
     0
  0
CLASS
  1
SCALE
  2
AcDbScale
  3
ObjectDBX Classes
 90
     1153
280
     0
281
     0
  0
CLASS
  1
TABLESTYLE
  2
AcDbTableStyle
  3
ObjectDBX Classes
 90
     4095
280
     0
281
     0
  0
CLASS
  1
MLEADERSTYLE
  2
AcDbMLeaderStyle
  3
ACDB_MLEADERSTYLE_CLASS
 90
     4095
280
     0
281
     0
  0
CLASS
  1
SUN
  2
AcDbSun
  3
SCENEOE
 90
     1153
280
     0
281
     0
  0
CLASS
  1
ACDBPLACEHOLDER
  2
AcDbPlaceHolder
  3
ObjectDBX Classes
 90
        0
280
     0
281
     0
  0
CLASS
  1
LAYOUT
  2
AcDbLayout
  3
ObjectDBX Classes
 90
        0
280
     0
281
     0
  0
ENDSEC
  0
SECTION
  2
TABLES
  0
TABLE
  2
VPORT
  5
8
330
0
100
AcDbSymbolTable
 70
     1
  0
VPORT
  5
29
330
8
100
AcDbSymbolTableRecord
100
AcDbViewportTableRecord
  2
*Active
 70
     0
 10
0.0
 20
0.0
 11
1.0
 21
1.0
 12
139.7
 22
107.95
 13
0.0
 23
0.0
 14
10.0
 24
10.0
 15
10.0
 25
10.0
 16
0.0
 26
0.0
 36
1.0
 17
0.0
 27
0.0
 37
0.0
 40
215.9
 41
1.2941176471
 42
50.0
 43
0.0
 44
0.0
 50
0.0
 51
0.0
 71
     0
 72
  2000
 73
     1
 74
     3
 75
     0
 76
     0
 77
     0
 78
     0
281
     0
 65
     1
110
0.0
120
0.0
130
0.0
111
1.0
121
0.0
131
0.0
112
0.0
122
1.0
132
0.0
 79
     0
146
0.0
  0
ENDTAB
  0
TABLE
  2
LTYPE
  5
5
330
0
100
AcDbSymbolTable
 70
     6
  0
LTYPE
  5
14
330
5
100
AcDbSymbolTableRecord
100
AcDbLinetypeTableRecord
  2
ByBlock
 70
     0
  3

 72
    65
 73
     0
 40
0.0
  0
LTYPE
  5
15
330
5
100
AcDbSymbolTableRecord
100
AcDbLinetypeTableRecord
  2
ByLayer
 70
     0
  3

 72
    65
 73
     0
 40
0.0
  0
LTYPE
  5
16
330
5
100
AcDbSymbolTableRecord
100
AcDbLinetypeTableRecord
  2
Continuous
 70
     0
  3
Solid line
 72
    65
 73
     0
 40
0.0
  0
LTYPE
  5
6E
330
5
100
AcDbSymbolTableRecord
100
AcDbLinetypeTableRecord
  2
HIDDEN
 70
     0
  3
Hidden __ __ __ __ __ __ __ __ __ __ __ __ __ __
 72
    65
 73
     2
 40
1.905
 49
1.27
 74
     0
 49
-0.635
 74
     0
  0
LTYPE
  5
6F
330
5
100
AcDbSymbolTableRecord
100
AcDbLinetypeTableRecord
  2
PHANTOM
 70
     0
  3
Phantom ______  __  __  ______  __  __  ______
 72
    65
 73
     6
 40
12.7
 49
6.35
 74
     0
 49
-1.27
 74
     0
 49
1.27
 74
     0
 49
-1.27
 74
     0
 49
1.27
 74
     0
 49
-1.27
 74
     0
  0
LTYPE
  5
70
330
5
100
AcDbSymbolTableRecord
100
AcDbLinetypeTableRecord
  2
CENTER
 70
     0
  3
Center ____ _ ____ _ ____ _ ____ _ ____ _ ____
 72
    65
 73
     4
 40
10.16
 49
6.35
 74
     0
 49
-1.27
 74
     0
 49
1.27
 74
     0
 49
-1.27
 74
     0
  0
LTYPE
  5
71
330
5
100
AcDbSymbolTableRecord
100
AcDbLinetypeTableRecord
  2
CENTERX2
 70
     0
  3
Center (2x) ________  __  ________  __  _____
 72
    65
 73
     4
 40
20.32
 49
12.7
 74
     0
 49
-2.54
 74
     0
 49
2.54
 74
     0
 49
-2.54
 74
     0
  0
LTYPE
  5
72
330
5
100
AcDbSymbolTableRecord
100
AcDbLinetypeTableRecord
  2
DOT2
 70
     0
  3
Dot (.5x) ........................................
 72
    65
 73
     2
 40
0.635
 49
0.0
 74
     0
 49
-0.635
 74
     0
  0
ENDTAB
  0
TABLE
  2
LAYER
  5
2
330
0
100
AcDbSymbolTable
 70
    17
  0
LAYER
  5
10
330
2
100
AcDbSymbolTableRecord
100
AcDbLayerTableRecord
  2
0
 70
     0
 62
     7
  6
Continuous
370
    -3
390
F
  0
LAYER
  5
73
330
2
100
AcDbSymbolTableRecord
100
AcDbLayerTableRecord
  2
FORMAT
 70
     0
 62
     7
  6
Continuous
370
    -3
390
F
  0
LAYER
  5
74
330
2
100
AcDbSymbolTableRecord
100
AcDbLayerTableRecord
  2
YARDIMCI_GEOMETRI
 70
     0
 62
    -6
  6
Continuous
290
     0
370
    -3
390
F
  0
LAYER
  5
75
330
2
100
AcDbSymbolTableRecord
100
AcDbLayerTableRecord
  2
SAYFA_CERCEVESI
 70
     0
 62
     7
  6
Continuous
370
    25
390
F
  0
LAYER
  5
76
330
2
100
AcDbSymbolTableRecord
100
AcDbLayerTableRecord
  2
ANTET
 70
     0
 62
     7
  6
Continuous
370
    -3
390
F
  0
LAYER
  5
77
330
2
100
AcDbSymbolTableRecord
100
AcDbLayerTableRecord
  2
OLCU
 70
     0
 62
   150
  6
Continuous
370
    -3
390
F
  0
LAYER
  5
78
330
2
100
AcDbSymbolTableRecord
100
AcDbLayerTableRecord
  2
METIN
 70
     0
 62
    96
  6
Continuous
370
    -3
390
F
  0
LAYER
  5
79
330
2
100
AcDbSymbolTableRecord
100
AcDbLayerTableRecord
  2
BALON
 70
     0
 62
     5
  6
Continuous
370
    -3
390
F
  0
LAYER
  5
7A
330
2
100
AcDbSymbolTableRecord
100
AcDbLayerTableRecord
  2
VURGU
 70
     0
 62
     7
  6
Continuous
370
    -3
390
F
  0
LAYER
  5
7B
330
2
100
AcDbSymbolTableRecord
100
AcDbLayerTableRecord
  2
SILIK
 70
     0
 62
     7
  6
Continuous
370
    -3
390
F
  0
LAYER
  5
7C
330
2
100
AcDbSymbolTableRecord
100
AcDbLayerTableRecord
  2
MODEL
 70
     0
 62
     7
  6
Continuous
370
    -3
390
F
  0
LAYER
  5
7D
330
2
100
AcDbSymbolTableRecord
100
AcDbLayerTableRecord
  2
DETAYLANDıRMA
 70
     0
 62
   190
  6
Continuous
370
    -3
390
F
  0
LAYER
  5
7E
330
2
100
AcDbSymbolTableRecord
100
AcDbLayerTableRecord
  2
TOLERANS
 70
     0
 62
   230
  6
Continuous
370
    -3
390
F
  0
LAYER
  5
7F
330
2
100
AcDbSymbolTableRecord
100
AcDbLayerTableRecord
  2
MERKEZ_CIZGILERI
 70
     0
 62
    30
  6
Continuous
370
    -3
390
F
  0
LAYER
  5
80
330
2
100
AcDbSymbolTableRecord
100
AcDbLayerTableRecord
  2
KESIT-DETAY_CIZGILERI
 70
     0
 62
     7
  6
Continuous
370
    -3
390
F
  0
LAYER
  5
81
330
2
100
AcDbSymbolTableRecord
100
AcDbLayerTableRecord
  2
\U+041E\U+0421\U+0415\U+0412\U+042B\U+0415
 70
     0
 62
     7
  6
Continuous
370
    -3
390
F
  0
LAYER
  5
82
330
2
100
AcDbSymbolTableRecord
100
AcDbLayerTableRecord
  2
\U+0412\U+041E\U+0414\U+042F\U+041D\U+042B\U+0415_\U+0417\U+041D\U+0410\U+041A\U+0418
 70
     0
 62
    11
  6
Continuous
370
    -3
390
F
  0
ENDTAB
  0
TABLE
  2
STYLE
  5
3
330
0
100
AcDbSymbolTable
 70
     1
  0
STYLE
  5
11
330
3
100
AcDbSymbolTableRecord
100
AcDbTextStyleTableRecord
  2
Standard
 70
     0
 40
0.0
 41
1.0
 50
0.0
 71
     0
 42
3.5
  3
txt
  4

  0
ENDTAB
  0
TABLE
  2
VIEW
  5
6
330
0
100
AcDbSymbolTable
 70
     0
  0
ENDTAB
  0
TABLE
  2
UCS
  5
7
330
0
100
AcDbSymbolTable
 70
     0
  0
ENDTAB
  0
TABLE
  2
APPID
  5
9
330
0
100
AcDbSymbolTable
 70
     1
  0
APPID
  5
12
330
9
100
AcDbSymbolTableRecord
100
AcDbRegAppTableRecord
  2
ACAD
 70
     0
  0
ENDTAB
  0
TABLE
  2
DIMSTYLE
  5
A
330
0
100
AcDbSymbolTable
 70
     1
100
AcDbDimStyleTable
  0
DIMSTYLE
105
27
330
A
100
AcDbSymbolTableRecord
100
AcDbDimStyleTableRecord
  2
ISO-25
 70
     0
 41
2.5
 42
0.625
 43
3.75
 44
1.25
 73
     0
 74
     0
 77
     1
 78
     8
140
2.5
141
2.5
143
0.0393700787
147
0.625
171
     3
172
     1
178
     0
271
     2
272
     2
274
     3
278
    44
283
     0
284
     8
340
11
  0
ENDTAB
  0
TABLE
  2
BLOCK_RECORD
  5
1
330
0
100
AcDbSymbolTable
 70
     1
  0
BLOCK_RECORD
  5
1F
330
1
100
AcDbSymbolTableRecord
100
AcDbBlockTableRecord
  2
*Model_Space
340
22
  0
BLOCK_RECORD
  5
1B
330
1
100
AcDbSymbolTableRecord
100
AcDbBlockTableRecord
  2
*Paper_Space
340
1E
  0
BLOCK_RECORD
  5
23
330
1
100
AcDbSymbolTableRecord
100
AcDbBlockTableRecord
  2
*Paper_Space0
340
26
  0
ENDTAB
  0
ENDSEC
  0
SECTION
  2
BLOCKS
  0
BLOCK
  5
20
330
1F
100
AcDbEntity
  8
0
100
AcDbBlockBegin
  2
*Model_Space
 70
     0
 10
0.0
 20
0.0
 30
0.0
  3
*Model_Space
  1

  0
ENDBLK
  5
21
330
1F
100
AcDbEntity
  8
0
100
AcDbBlockEnd
  0
BLOCK
  5
1C
330
1B
100
AcDbEntity
 67
     1
  8
0
100
AcDbBlockBegin
  2
*Paper_Space
 70
     0
 10
0.0
 20
0.0
 30
0.0
  3
*Paper_Space
  1

  0
ENDBLK
  5
1D
330
1B
100
AcDbEntity
 67
     1
  8
0
100
AcDbBlockEnd
  0
BLOCK
  5
24
330
23
100
AcDbEntity
  8
0
100
AcDbBlockBegin
  2
*Paper_Space0
 70
     0
 10
0.0
 20
0.0
 30
0.0
  3
*Paper_Space0
  1

  0
ENDBLK
  5
25
330
23
100
AcDbEntity
  8
0
100
AcDbBlockEnd
  0
ENDSEC
  0
SECTION
  2
ENTITIES
  0
CIRCLE
  5
83
330
1F
100
AcDbEntity
  8
0
  6
Continuous
 62
     7
370
    25
100
AcDbCircle
 10
143.2824722122
 20
100.0525598542
 30
0.0
 40
280.0
  0
CIRCLE
  5
84
330
1F
100
AcDbEntity
  8
0
  6
Continuous
 62
     7
370
    25
100
AcDbCircle
 10
143.2824722122
 20
100.0525598542
 30
0.0
 40
229.2
  0
CIRCLE
  5
85
330
1F
100
AcDbEntity
  8
0
  6
Continuous
 62
     7
370
    25
100
AcDbCircle
 10
143.2824722122
 20
100.0525598542
 30
0.0
 40
309.0
  0
CIRCLE
  5
86
330
1F
100
AcDbEntity
  8
0
  6
Continuous
 62
     7
370
    25
100
AcDbCircle
 10
143.2824722122
 20
100.0525598542
 30
0.0
 40
345.0
  0
LINE
  5
87
330
1F
100
AcDbEntity
  8
0
  6
Continuous
 62
     7
370
    25
100
AcDbLine
 10
488.2824722122
 20
773.1417822239
 30
0.0
 11
488.2824722122
 21
853.1417822239
 31
0.0
  0
LINE
  5
88
330
1F
100
AcDbEntity
  8
0
  6
Continuous
 62
     7
370
    25
100
AcDbLine
 10
-201.7175277878
 20
853.1417822239
 30
0.0
 11
-201.7175277878
 21
773.1417822239
 31
0.0
  0
LINE
  5
89
330
1F
100
AcDbEntity
  8
0
  6
Continuous
 62
     7
370
    25
100
AcDbLine
 10
452.2824722122
 20
853.1417822239
 30
0.0
 11
423.2824722122
 21
910.1417822239
 31
0.0
  0
LINE
  5
8A
330
1F
100
AcDbEntity
  8
0
  6
Continuous
 62
     7
370
    25
100
AcDbLine
 10
-136.7175277878
 20
910.1417822239
 30
0.0
 11
-165.7175277878
 21
853.1417822239
 31
0.0
  0
LINE
  5
8B
330
1F
100
AcDbEntity
  8
0
  6
Continuous
 62
     7
370
    25
100
AcDbLine
 10
423.2824722122
 20
910.1417822239
 30
0.0
 11
423.2824722122
 21
953.1417822239
 31
0.0
  0
LINE
  5
8C
330
1F
100
AcDbEntity
  8
0
  6
Continuous
 62
     7
370
    25
100
AcDbLine
 10
-136.7175277878
 20
953.1417822239
 30
0.0
 11
-136.7175277878
 21
910.1417822239
 31
0.0
  0
LINE
  5
8D
330
1F
100
AcDbEntity
  8
0
  6
Continuous
 62
     7
370
    25
100
AcDbLine
 10
488.2824722122
 20
773.1417822239
 30
0.0
 11
-201.7175277878
 21
773.1417822239
 31
0.0
  0
LINE
  5
8E
330
1F
100
AcDbEntity
  8
0
  6
Continuous
 62
     7
370
    25
100
AcDbLine
 10
488.2824722122
 20
853.1417822239
 30
0.0
 11
-201.7175277878
 21
853.1417822239
 31
0.0
  0
LINE
  5
8F
330
1F
100
AcDbEntity
  8
0
  6
Continuous
 62
     7
370
    25
100
AcDbLine
 10
423.2824722122
 20
910.1417822239
 30
0.0
 11
-136.7175277878
 21
910.1417822239
 31
0.0
  0
LINE
  5
90
330
1F
100
AcDbEntity
  8
0
  6
Continuous
 62
     7
370
    25
100
AcDbLine
 10
423.2824722122
 20
953.1417822239
 30
0.0
 11
-136.7175277878
 21
953.1417822239
 31
0.0
  0
LINE
  5
91
330
1F
100
AcDbEntity
  8
0
  6
Continuous
 62
     7
370
    25
100
AcDbLine
 10
-566.7963721777
 20
445.0525598542
 30
0.0
 11
-646.7963721777
 21
445.0525598542
 31
0.0
  0
LINE
  5
92
330
1F
100
AcDbEntity
  8
0
  6
Continuous
 62
     7
370
    25
100
AcDbLine
 10
-646.7963721777
 20
-244.9474401458
 30
0.0
 11
-566.7963721777
 21
-244.9474401458
 31
0.0
  0
LINE
  5
93
330
1F
100
AcDbEntity
  8
0
  6
Continuous
 62
     7
370
    25
100
AcDbLine
 10
-646.7963721777
 20
409.0525598542
 30
0.0
 11
-703.7963721777
 21
380.0525598542
 31
0.0
  0
LINE
  5
94
330
1F
100
AcDbEntity
  8
0
  6
Continuous
 62
     7
370
    25
100
AcDbLine
 10
-703.7963721777
 20
-179.9474401458
 30
0.0
 11
-646.7963721777
 21
-208.9474401458
 31
0.0
  0
LINE
  5
95
330
1F
100
AcDbEntity
  8
0
  6
Continuous
 62
     7
370
    25
100
AcDbLine
 10
-703.7963721777
 20
380.0525598542
 30
0.0
 11
-746.7963721777
 21
380.0525598542
 31
0.0
  0
LINE
  5
96
330
1F
100
AcDbEntity
  8
0
  6
Continuous
 62
     7
370
    25
100
AcDbLine
 10
-746.7963721777
 20
-179.9474401458
 30
0.0
 11
-703.7963721777
 21
-179.9474401458
 31
0.0
  0
LINE
  5
97
330
1F
100
AcDbEntity
  8
0
  6
Continuous
 62
     7
370
    25
100
AcDbLine
 10
-566.7963721777
 20
445.0525598542
 30
0.0
 11
-566.7963721777
 21
-244.9474401458
 31
0.0
  0
LINE
  5
98
330
1F
100
AcDbEntity
  8
0
  6
Continuous
 62
     7
370
    25
100
AcDbLine
 10
-646.7963721777
 20
445.0525598542
 30
0.0
 11
-646.7963721777
 21
-244.9474401458
 31
0.0
  0
LINE
  5
99
330
1F
100
AcDbEntity
  8
0
  6
Continuous
 62
     7
370
    25
100
AcDbLine
 10
-703.7963721777
 20
380.0525598542
 30
0.0
 11
-703.7963721777
 21
-179.9474401458
 31
0.0
  0
LINE
  5
9A
330
1F
100
AcDbEntity
  8
0
  6
Continuous
 62
     7
370
    25
100
AcDbLine
 10
-746.7963721777
 20
380.0525598542
 30
0.0
 11
-746.7963721777
 21
-179.9474401458
 31
0.0
  0
LINE
  5
9B
330
1F
100
AcDbEntity
  8
0
  6
Continuous
 62
     7
370
    25
100
AcDbLine
 10
-201.7175277878
 20
-657.0653327807
 30
0.0
 11
-201.7175277878
 21
-737.0653327807
 31
0.0
  0
LINE
  5
9C
330
1F
100
AcDbEntity
  8
0
  6
Continuous
 62
     7
370
    25
100
AcDbLine
 10
488.2824722122
 20
-737.0653327807
 30
0.0
 11
488.2824722122
 21
-657.0653327807
 31
0.0
  0
LINE
  5
9D
330
1F
100
AcDbEntity
  8
0
  6
Continuous
 62
     7
370
    25
100
AcDbLine
 10
-165.7175277878
 20
-737.0653327807
 30
0.0
 11
-136.7175277878
 21
-794.0653327807
 31
0.0
  0
LINE
  5
9E
330
1F
100
AcDbEntity
  8
0
  6
Continuous
 62
     7
370
    25
100
AcDbLine
 10
423.2824722122
 20
-794.0653327807
 30
0.0
 11
452.2824722122
 21
-737.0653327807
 31
0.0
  0
LINE
  5
9F
330
1F
100
AcDbEntity
  8
0
  6
Continuous
 62
     7
370
    25
100
AcDbLine
 10
-136.7175277878
 20
-794.0653327807
 30
0.0
 11
-136.7175277878
 21
-837.0653327807
 31
0.0
  0
LINE
  5
A0
330
1F
100
AcDbEntity
  8
0
  6
Continuous
 62
     7
370
    25
100
AcDbLine
 10
423.2824722122
 20
-837.0653327807
 30
0.0
 11
423.2824722122
 21
-794.0653327807
 31
0.0
  0
LINE
  5
A1
330
1F
100
AcDbEntity
  8
0
  6
Continuous
 62
     7
370
    25
100
AcDbLine
 10
-201.7175277878
 20
-657.0653327807
 30
0.0
 11
488.2824722122
 21
-657.0653327807
 31
0.0
  0
LINE
  5
A2
330
1F
100
AcDbEntity
  8
0
  6
Continuous
 62
     7
370
    25
100
AcDbLine
 10
-201.7175277878
 20
-737.0653327807
 30
0.0
 11
488.2824722122
 21
-737.0653327807
 31
0.0
  0
LINE
  5
A3
330
1F
100
AcDbEntity
  8
0
  6
Continuous
 62
     7
370
    25
100
AcDbLine
 10
-136.7175277878
 20
-794.0653327807
 30
0.0
 11
423.2824722122
 21
-794.0653327807
 31
0.0
  0
LINE
  5
A4
330
1F
100
AcDbEntity
  8
0
  6
Continuous
 62
     7
370
    25
100
AcDbLine
 10
-136.7175277878
 20
-837.0653327807
 30
0.0
 11
423.2824722122
 21
-837.0653327807
 31
0.0
  0
LINE
  5
A5
330
1F
100
AcDbEntity
  8
0
  6
Continuous
 62
     7
370
    25
100
AcDbLine
 10
844.3961224145
 20
-244.9474401458
 30
0.0
 11
924.3961224145
 21
-244.9474401458
 31
0.0
  0
LINE
  5
A6
330
1F
100
AcDbEntity
  8
0
  6
Continuous
 62
     7
370
    25
100
AcDbLine
 10
924.3961224145
 20
445.0525598542
 30
0.0
 11
844.3961224145
 21
445.0525598542
 31
0.0
  0
LINE
  5
A7
330
1F
100
AcDbEntity
  8
0
  6
Continuous
 62
     7
370
    25
100
AcDbLine
 10
924.3961224145
 20
-208.9474401458
 30
0.0
 11
981.3961224145
 21
-179.9474401458
 31
0.0
  0
LINE
  5
A8
330
1F
100
AcDbEntity
  8
0
  6
Continuous
 62
     7
370
    25
100
AcDbLine
 10
981.3961224145
 20
380.0525598542
 30
0.0
 11
924.3961224145
 21
409.0525598542
 31
0.0
  0
LINE
  5
A9
330
1F
100
AcDbEntity
  8
0
  6
Continuous
 62
     7
370
    25
100
AcDbLine
 10
981.3961224145
 20
-179.9474401458
 30
0.0
 11
1024.3961224145
 21
-179.9474401458
 31
0.0
  0
LINE
  5
AA
330
1F
100
AcDbEntity
  8
0
  6
Continuous
 62
     7
370
    25
100
AcDbLine
 10
1024.3961224145
 20
380.0525598542
 30
0.0
 11
981.3961224145
 21
380.0525598542
 31
0.0
  0
LINE
  5
AB
330
1F
100
AcDbEntity
  8
0
  6
Continuous
 62
     7
370
    25
100
AcDbLine
 10
844.3961224145
 20
100.0525598542
 30
0.0
 11
844.3961224145
 21
445.0525598542
 31
0.0
  0
LINE
  5
AC
330
1F
100
AcDbEntity
  8
0
  6
Continuous
 62
     7
370
    25
100
AcDbLine
 10
844.3961224145
 20
-244.9474401458
 30
0.0
 11
844.3961224145
 21
100.0525598542
 31
0.0
  0
LINE
  5
AD
330
1F
100
AcDbEntity
  8
0
  6
Continuous
 62
     7
370
    25
100
AcDbLine
 10
924.3961224145
 20
100.0525598542
 30
0.0
 11
924.3961224145
 21
445.0525598542
 31
0.0
  0
LINE
  5
AE
330
1F
100
AcDbEntity
  8
0
  6
Continuous
 62
     7
370
    25
100
AcDbLine
 10
924.3961224145
 20
-244.9474401458
 30
0.0
 11
924.3961224145
 21
100.0525598542
 31
0.0
  0
LINE
  5
AF
330
1F
100
AcDbEntity
  8
0
  6
Continuous
 62
     7
370
    25
100
AcDbLine
 10
981.3961224145
 20
100.0525598542
 30
0.0
 11
981.3961224145
 21
380.0525598542
 31
0.0
  0
LINE
  5
B0
330
1F
100
AcDbEntity
  8
0
  6
Continuous
 62
     7
370
    25
100
AcDbLine
 10
981.3961224145
 20
-179.9474401458
 30
0.0
 11
981.3961224145
 21
100.0525598542
 31
0.0
  0
LINE
  5
B1
330
1F
100
AcDbEntity
  8
0
  6
Continuous
 62
     7
370
    25
100
AcDbLine
 10
1024.3961224145
 20
100.0525598542
 30
0.0
 11
1024.3961224145
 21
380.0525598542
 31
0.0
  0
LINE
  5
B2
330
1F
100
AcDbEntity
  8
0
  6
Continuous
 62
     7
370
    25
100
AcDbLine
 10
1024.3961224145
 20
-179.9474401458
 30
0.0
 11
1024.3961224145
 21
100.0525598542
 31
0.0
  0
LINE
  5
B3
330
1F
100
AcDbEntity
  8
0
  6
Continuous
 62
     7
370
    25
100
AcDbLine
 10
1201.5683158043
 20
-409.3527173981
 30
0.0
 11
1144.9997733093
 21
-376.6963929252
 31
0.0
  0
LINE
  5
B4
330
1F
100
AcDbEntity
  8
0
  6
Continuous
 62
     7
370
    25
100
AcDbLine
 10
800.0278105499
 20
-974.2701079679
 30
0.0
 11
856.5963530448
 21
-1006.9264324408
 31
0.0
  0
LINE
  5
B5
330
1F
100
AcDbEntity
  8
0
  6
Continuous
 62
     7
370
    25
100
AcDbLine
 10
1061.0646539468
 20
-393.702362089
 30
0.0
 11
1046.1377717336
 21
-394.6780761947
 31
0.0
  0
LINE
  5
B6
330
1F
100
AcDbEntity
  8
0
  6
Continuous
 62
     7
370
    25
100
AcDbLine
 10
766.1605265955
 20
-879.6654391279
 30
0.0
 11
772.7802333021
 21
-893.0797342544
 31
0.0
  0
LINE
  5
B7
330
1F
100
AcDbEntity
  8
0
  6
Continuous
 62
     7
370
    25
100
AcDbLine
 10
1072.197327971
 20
-409.721937793
 30
0.0
 11
1041.79173638
 21
-392.1691633888
 31
0.0
  0
LINE
  5
B8
330
1F
100
AcDbEntity
  8
0
  6
Continuous
 62
     7
370
    25
100
AcDbLine
 10
761.8144912419
 20
-877.156526322
 30
0.0
 11
792.2200828329
 21
-894.7093007262
 31
0.0
  0
LWPOLYLINE
  5
B9
330
1F
100
AcDbEntity
  8
0
  6
Continuous
 62
     7
370
    25
100
AcDbPolyline
 90
      101
 70
   128
 43
0.0
 10
1201.5683158043
 20
-409.3527173981
 10
1202.2686834446
 20
-409.7603272806
 10
1207.6594709216
 20
-413.1266375362
 10
1212.8686163784
 20
-416.7930239772
 10
1217.8908212661
 20
-420.7557572916
 10
1222.7209771847
 20
-425.0108067347
 10
1227.3541710792
 20
-429.5538442284
 10
1231.7856902372
 20
-434.3802487639
 10
1236.0110270823
 20
-439.4851111021
 10
1240.0258837589
 20
-444.863238767
 10
1243.8261765043
 20
-450.5091613271
 10
1247.408039802
 20
-456.41713596
 10
1250.7678303139
 20
-462.5811532937
 10
1253.9021305861
 20
-468.9949435192
 10
1256.807752525
 20
-475.6519827675
 10
1259.48174064
 20
-482.5454997459
 10
1261.9213750498
 20
-489.6684826256
 10
1264.1241742492
 20
-497.0136861731
 10
1266.0878976326
 20
-504.5736391208
 10
1267.8105477738
 20
-512.3406517658
 10
1269.2903724571
 20
-520.3068237916
 10
1270.5258664598
 20
-528.4640523045
 10
1271.5157730835
 20
-536.8040400751
 10
1272.2590854319
 20
-545.318303978
 10
1272.7550474354
 20
-553.9981836207
 10
1273.0031546198
 20
-562.8348501526
 10
1273.0031546198
 20
-571.8193152452
 10
1272.7550474354
 20
-580.9424402348
 10
1272.2590854319
 20
-590.1949454181
 10
1271.5157730835
 20
-599.567419491
 10
1270.5258664598
 20
-609.0503291214
 10
1269.2903724571
 20
-618.6340286466
 10
1267.8105477738
 20
-628.3087698838
 10
1266.0878976326
 20
-638.0647120462
 10
1264.1241742492
 20
-647.8919317523
 10
1261.9213750498
 20
-657.7804331198
 10
1259.48174064
 20
-667.7201579331
 10
1256.807752525
 20
-677.7009958736
 10
1253.9021305861
 20
-687.7127948045
 10
1250.7678303139
 20
-697.7453710962
 10
1247.408039802
 20
-707.7885199853
 10
1243.8261765043
 20
-717.8320259545
 10
1240.0258837589
 20
-727.8656731231
 10
1236.0110270823
 20
-737.8792556383
 10
1231.7856902372
 20
-747.8625880567
 10
1227.3541710792
 20
-757.8055157038
 10
1222.7209771847
 20
-767.6979250035
 10
1217.8908212661
 20
-777.5297537651
 10
1212.8686163784
 20
-787.2910014181
 10
1207.6594709216
 20
-796.9717391844
 10
1202.2686834446
 20
-806.5621201779
 10
1196.7017372559
 20
-816.0523894196
 10
1190.9642948461
 20
-825.4328937608
 10
1185.0621921282
 20
-834.6940917014
 10
1179.0014325015
 20
-843.8265630954
 10
1172.7881807452
 20
-852.8210187325
 10
1166.4287567479
 20
-861.6683097872
 10
1159.9296290791
 20
-870.359437124
 10
1153.2974084098
 20
-878.8855604516
 10
1146.5388407879
 20
-887.2380073144
 10
1139.6608007772
 20
-895.4082819143
 10
1132.6702844641
 20
-903.3880737519
 10
1125.5744023416
 20
-911.1692660797
 10
1118.3803720772
 20
-918.7439441584
 10
1111.0955111708
 20
-926.1044033071
 10
1103.7272295119
 20
-933.2431567408
 10
1096.2830218424
 20
-940.1529431849
 10
1088.7704601337
 20
-946.8267342617
 10
1081.1971858838
 20
-953.2577416392
 10
1073.5709023457
 20
-959.4394239359
 10
1065.8993666913
 20
-965.3654933746
 10
1058.1903821213
 20
-971.0299221778
 10
1050.451789928
 20
-976.4269486993
 10
1042.6914615195
 20
-981.5510832846
 10
1034.9172904132
 20
-986.3971138545
 10
1027.1371842067
 20
-990.9601112069
 10
1019.3590565346
 20
-995.2354340308
 10
1011.5908190191
 20
-999.2187336268
 10
1003.8403732224
 20
-1002.9059583307
 10
996.1156026096
 20
-1006.2933576347
 10
988.4243645301
 20
-1009.3774860023
 10
980.774482225
 20
-1012.1552063728
 10
973.1737368702
 20
-1014.6236933524
 10
965.629859661
 20
-1016.780436088
 10
958.1505239487
 20
-1018.623240821
 10
950.7433374353
 20
-1020.1502331191
 10
943.4158344354
 20
-1021.3598597825
 10
936.1754682126
 20
-1022.2508904239
 10
929.0296033979
 20
-1022.8224187202
 10
921.9855084992
 20
-1023.073863334
 10
915.0503485079
 20
-1023.0049685052
 10
908.2311776106
 20
-1022.615804311
 10
901.5349320144
 20
-1021.9067665949
 10
894.9684228912
 20
-1020.8785765635
 10
888.5383294497
 20
-1019.5322800536
 10
882.2511921418
 20
-1017.8692464678
 10
876.1134060097
 20
-1015.8911673821
 10
870.1312141812
 20
-1013.6000548249
 10
864.3107015192
 20
-1010.9982392307
 10
858.6577884326
 20
-1008.0883670696
 10
856.5963530448
 20
-1006.9264324408
  0
LWPOLYLINE
  5
BA
330
1F
100
AcDbEntity
  8
0
  6
Continuous
 62
     7
370
    25
100
AcDbPolyline
 90
      143
 70
   128
 43
0.0
 10
1000.4868986254
 20
-379.4862643225
 10
1001.6218396264
 20
-378.985466672
 10
1009.3308241964
 20
-375.7492913453
 10
1017.0023598508
 20
-372.8179942518
 10
1024.6286433889
 20
-370.1945569977
 10
1032.2019176387
 20
-367.8816480458
 10
1039.7144793475
 20
-365.8816200011
 10
1047.1586870169
 20
-364.1965072176
 10
1054.5269686759
 20
-362.8280237295
 10
1061.8118295823
 20
-361.7775615072
 10
1069.0058598467
 20
-361.0461890418
 10
1076.1017419692
 20
-360.6346502582
 10
1083.0922582823
 20
-360.5433637583
 10
1089.970298293
 20
-360.7724223954
 10
1096.7288659148
 20
-361.3215931795
 10
1103.3610865842
 20
-362.1903175146
 10
1109.860214253
 20
-363.3777117665
 10
1116.2196382503
 20
-364.882568162
 10
1122.4328900066
 20
-366.7033560172
 10
1128.4936496333
 20
-368.8382232943
 10
1134.3957523512
 20
-371.2849984859
 10
1140.133194761
 20
-374.0411928231
 10
1145.7001409497
 20
-377.1040028077
 10
1151.0909284267
 20
-380.4703130633
 10
1156.3000738835
 20
-384.1366995043
 10
1161.3222787712
 20
-388.0994328187
 10
1166.1524346898
 20
-392.3544822618
 10
1170.7856285843
 20
-396.8975197555
 10
1175.2171477423
 20
-401.723924291
 10
1179.4424845874
 20
-406.8287866292
 10
1183.457341264
 20
-412.2069142941
 10
1187.2576340094
 20
-417.8528368541
 10
1190.8394973071
 20
-423.7608114871
 10
1194.199287819
 20
-429.9248288208
 10
1197.3335880912
 20
-436.3386190462
 10
1200.2392100301
 20
-442.9956582945
 10
1202.9131981451
 20
-449.889175273
 10
1205.3528325549
 20
-457.0121581527
 10
1207.5556317543
 20
-464.3573617002
 10
1209.5193551377
 20
-471.9173146479
 10
1211.2420052789
 20
-479.6843272929
 10
1212.7218299622
 20
-487.6504993187
 10
1213.9573239649
 20
-495.8077278316
 10
1214.9472305886
 20
-504.1477156022
 10
1215.690542937
 20
-512.6619795051
 10
1216.1865049404
 20
-521.3418591478
 10
1216.4346121249
 20
-530.1785256797
 10
1216.4346121249
 20
-539.1629907723
 10
1216.1865049404
 20
-548.2861157619
 10
1215.690542937
 20
-557.5386209452
 10
1214.9472305886
 20
-566.9110950181
 10
1213.9573239649
 20
-576.3940046485
 10
1212.7218299622
 20
-585.9777041737
 10
1211.2420052789
 20
-595.6524454109
 10
1209.5193551377
 20
-605.4083875733
 10
1207.5556317543
 20
-615.2356072794
 10
1205.3528325549
 20
-625.1241086469
 10
1202.9131981451
 20
-635.0638334601
 10
1200.2392100301
 20
-645.0446714007
 10
1197.3335880912
 20
-655.0564703315
 10
1194.199287819
 20
-665.0890466233
 10
1190.8394973071
 20
-675.1321955124
 10
1187.2576340094
 20
-685.1757014816
 10
1183.457341264
 20
-695.2093486502
 10
1179.4424845874
 20
-705.2229311654
 10
1175.2171477423
 20
-715.2062635838
 10
1170.7856285843
 20
-725.1491912309
 10
1166.1524346898
 20
-735.0416005306
 10
1161.3222787712
 20
-744.8734292922
 10
1156.3000738835
 20
-754.6346769451
 10
1151.0909284267
 20
-764.3154147115
 10
1145.7001409497
 20
-773.905795705
 10
1140.133194761
 20
-783.3960649467
 10
1134.3957523512
 20
-792.7765692879
 10
1128.4936496333
 20
-802.0377672285
 10
1122.4328900065
 20
-811.1702386224
 10
1116.2196382503
 20
-820.1646942596
 10
1109.860214253
 20
-829.0119853143
 10
1103.3610865842
 20
-837.7031126511
 10
1096.7288659148
 20
-846.2292359787
 10
1089.970298293
 20
-854.5816828415
 10
1083.0922582823
 20
-862.7519574414
 10
1076.1017419692
 20
-870.731749279
 10
1069.0058598467
 20
-878.5129416068
 10
1061.8118295823
 20
-886.0876196855
 10
1054.5269686759
 20
-893.4480788342
 10
1047.1586870169
 20
-900.5868322679
 10
1039.7144793475
 20
-907.496618712
 10
1032.2019176387
 20
-914.1704097888
 10
1024.6286433889
 20
-920.6014171663
 10
1017.0023598508
 20
-926.783099463
 10
1009.3308241964
 20
-932.7091689017
 10
1001.6218396264
 20
-938.3735977049
 10
993.8832474331
 20
-943.7706242264
 10
986.1229190246
 20
-948.8947588117
 10
978.3487479182
 20
-953.7407893815
 10
970.5686417117
 20
-958.303786734
 10
962.7905140397
 20
-962.5791095579
 10
955.0222765242
 20
-966.5624091539
 10
947.2718307275
 20
-970.2496338578
 10
939.5470601147
 20
-973.6370331618
 10
931.8558220352
 20
-976.7211615294
 10
924.2059397301
 20
-979.4988818999
 10
916.6051943753
 20
-981.9673688795
 10
909.0613171661
 20
-984.1241116151
 10
901.5819814537
 20
-985.9669163481
 10
894.1747949404
 20
-987.4939086462
 10
886.8472919405
 20
-988.7035353096
 10
879.6069257177
 20
-989.594565951
 10
872.461060903
 20
-990.1660942473
 10
865.4169660043
 20
-990.4175388611
 10
858.481806013
 20
-990.3486440323
 10
851.6626351157
 20
-989.9594798381
 10
844.9663895195
 20
-989.250442122
 10
838.3998803962
 20
-988.2222520906
 10
831.9697869548
 20
-986.8759555807
 10
825.6826496469
 20
-985.2129219949
 10
819.5448635148
 20
-983.2348429092
 10
813.5626716863
 20
-980.943730352
 10
807.7421590242
 20
-978.3419147578
 10
802.0892459377
 20
-975.4320425967
 10
796.6096823595
 20
-972.2170736822
 10
791.3090418979
 20
-968.7002781613
 10
786.1927161673
 20
-964.8852331875
 10
781.2659093037
 20
-960.7758192827
 10
776.533632672
 20
-956.3762163897
 10
772.0006997677
 20
-951.690899621
 10
767.6717213217
 20
-946.7246347065
 10
763.5511006098
 20
-941.4824731461
 10
759.643028974
 20
-935.9697470716
 10
755.9514815596
 20
-930.1920638228
 10
752.4802132711
 20
-924.1553002442
 10
749.2327549535
 20
-917.8655967073
 10
746.2124098007
 20
-911.3293508643
 10
743.4222499954
 20
-904.5532111415
 10
740.8651135843
 20
-897.544069976
 10
738.5436015915
 20
-890.3090568057
 10
736.4600753726
 20
-882.8555308166
 10
734.6166542129
 20
-875.1910734582
 10
733.015213172
 20
-867.3234807314
 10
731.657381176
 20
-859.2607552588
 10
730.5445393611
 20
-851.0110981448
 10
730.1755980992
 20
-847.7299058677
  0
LWPOLYLINE
  5
BB
330
1F
100
AcDbEntity
  8
0
  6
Continuous
 62
     7
370
    25
100
AcDbPolyline
 90
      117
 70
   128
 43
0.0
 10
1061.0646539468
 20
-393.702362089
 10
1062.0578917257
 20
-393.6408574394
 10
1068.7381504367
 20
-393.4080499515
 10
1075.308615409
 20
-393.4970953843
 10
1081.7617896229
 20
-393.9078921354
 10
1088.0903098897
 20
-394.6399714783
 10
1094.2869552529
 20
-395.6924980972
 10
1100.3446552277
 20
-397.06427104
 10
1106.2564978685
 20
-398.7537250891
 10
1112.0157376557
 20
-400.7589325465
 10
1117.6158031922
 20
-403.0776054344
 10
1123.0503047015
 20
-405.7070981048
 10
1128.313041319
 20
-408.644410259
 10
1133.3980081667
 20
-411.8861903704
 10
1138.2994032051
 20
-415.4287395091
 10
1143.0116338536
 20
-419.2680155624
 10
1147.5293233715
 20
-423.3996378465
 10
1151.8473169932
 20
-427.8188921056
 10
1155.9606878095
 20
-432.5207358903
 10
1159.8647423899
 20
-437.4998043115
 10
1163.5550261371
 20
-442.750416162
 10
1167.0273283705
 20
-448.2665803983
 10
1170.2776871302
 20
-454.042002977
 10
1173.3023936979
 20
-460.0700940361
 10
1176.0979968286
 20
-466.3439754144
 10
1178.6613066884
 20
-472.8564884994
 10
1180.9893984942
 20
-479.6002023955
 10
1183.0796158511
 20
-486.5674224029
 10
1184.9295737831
 20
-493.7501987971
 10
1186.5371614546
 20
-501.1403359
 10
1187.900544579
 20
-508.7294014311
 10
1189.0181675114
 20
-516.5087361289
 10
1189.8887550238
 20
-524.4694636315
 10
1190.5113137599
 20
-532.6025006043
 10
1190.8851333691
 20
-540.8985671045
 10
1191.0097873163
 20
-549.34819717
 10
1190.8851333691
 20
-557.9417496193
 10
1190.5113137599
 20
-566.6694190534
 10
1189.8887550238
 20
-575.521247043
 10
1189.0181675114
 20
-584.4871334919
 10
1187.900544579
 20
-593.556848161
 10
1186.5371614546
 20
-602.7200423412
 10
1184.9295737831
 20
-611.9662606619
 10
1183.0796158511
 20
-621.2849530202
 10
1180.9893984942
 20
-630.665486619
 10
1178.6613066884
 20
-640.0971580993
 10
1176.0979968286
 20
-649.569205753
 10
1173.3023936979
 20
-659.0708218017
 10
1170.2776871302
 20
-668.5911647292
 10
1167.0273283705
 20
-678.1193716516
 10
1163.5550261371
 20
-687.6445707119
 10
1159.8647423899
 20
-697.1558934851
 10
1155.9606878095
 20
-706.6424873794
 10
1151.8473169932
 20
-716.0935280192
 10
1147.5293233715
 20
-725.4982315956
 10
1143.0116338536
 20
-734.8458671712
 10
1138.2994032051
 20
-744.1257689242
 10
1133.3980081667
 20
-753.3273483184
 10
1128.313041319
 20
-762.4401061849
 10
1123.0503047015
 20
-771.4536447014
 10
1117.6158031921
 20
-780.3576792572
 10
1112.0157376557
 20
-789.1420501872
 10
1106.2564978685
 20
-797.7967343649
 10
1100.3446552277
 20
-806.3118566386
 10
1094.2869552529
 20
-814.6777010993
 10
1088.0903098897
 20
-822.8847221668
 10
1081.7617896229
 20
-830.9235554811
 10
1075.308615409
 20
-838.7850285876
 10
1068.7381504367
 20
-846.4601714028
 10
1062.0578917257
 20
-853.9402264496
 10
1055.2754615725
 20
-861.2166588494
 10
1048.398598853
 20
-868.281166061
 10
1041.4351501921
 20
-875.1256873534
 10
1034.3930610112
 20
-881.7424130036
 10
1027.2803664617
 20
-888.1237932078
 10
1020.1051822572
 20
-894.2625466952
 10
1012.8756954129
 20
-900.1516690368
 10
1005.6001549047
 20
-905.7844406372
 10
998.286862256
 20
-911.1544344017
 10
990.9441620666
 20
-916.2555230702
 10
983.5804324905
 20
-921.0818862079
 10
976.2040756768
 20
-925.6280168469
 10
968.8235081824
 20
-929.8887277696
 10
961.4471513687
 20
-933.8591574277
 10
954.0834217926
 20
-937.5347754888
 10
946.7407216032
 20
-940.9113880061
 10
939.4274289546
 20
-943.9851422034
 10
932.1518884463
 20
-946.7525308714
 10
924.9224016021
 20
-949.2103963695
 10
917.7472173976
 20
-951.3559342285
 10
910.6345228481
 20
-953.1866963508
 10
903.5924336672
 20
-954.7005938037
 10
896.6289850063
 20
-955.8958992027
 10
889.7521222867
 20
-956.7712486825
 10
882.9696921335
 20
-957.3256434537
 10
876.2894334226
 20
-957.5584509416
 10
869.7189684503
 20
-957.4694055088
 10
863.2657942363
 20
-957.0586087577
 10
856.9372739695
 20
-956.3265294148
 10
850.7406286064
 20
-955.2740027959
 10
844.6829286316
 20
-953.9022298531
 10
838.7710859908
 20
-952.2127758041
 10
833.0118462036
 20
-950.2075683466
 10
827.4117806671
 20
-947.8888954587
 10
821.9772791577
 20
-945.2594027883
 10
816.7145425402
 20
-942.3220906342
 10
811.6295756926
 20
-939.0803105228
 10
806.7281806542
 20
-935.537761384
 10
802.0159500057
 20
-931.6984853308
 10
797.4982604877
 20
-927.5668630466
 10
793.1802668661
 20
-923.1476087876
 10
789.0668960497
 20
-918.4457650029
 10
785.1628414694
 20
-913.4666965816
 10
781.4725577222
 20
-908.2160847311
 10
778.0002554888
 20
-902.6999204948
 10
774.7498967291
 20
-896.9244979161
 10
772.7802333021
 20
-893.0797342544
  0
LWPOLYLINE
  5
BC
330
1F
100
AcDbEntity
  8
0
  6
Continuous
 62
     7
370
    25
100
AcDbPolyline
 90
       90
 70
   128
 43
0.0
 10
1072.197327971
 20
-409.721937793
 10
1075.280089922
 20
-411.5817307955
 10
1080.0472114988
 20
-414.7928507351
 10
1084.6280578219
 20
-418.303121333
 10
1089.0168570642
 20
-422.1081196785
 10
1093.2080793761
 20
-426.2030515059
 10
1097.1964438533
 20
-430.5827572363
 10
1100.9769251907
 20
-435.241718478
 10
1104.5447600142
 20
-440.1740649794
 10
1107.8954528823
 20
-445.3735820264
 10
1111.0247819507
 20
-450.8337182717
 10
1113.9288042915
 20
-456.5475939905
 10
1116.6038608614
 20
-462.5080097481
 10
1119.0465811121
 20
-468.7074554718
 10
1121.2538872368
 20
-475.1381199128
 10
1123.2229980487
 20
-481.791900489
 10
1124.951432485
 20
-488.6604134937
 10
1126.4370127332
 20
-495.7350046593
 10
1127.6778669748
 20
-503.0067600613
 10
1128.6724317441
 20
-510.4665173503
 10
1129.4194538979
 20
-518.1048772957
 10
1129.9179921948
 20
-525.9122156293
 10
1130.1674184807
 20
-533.8786951716
 10
1130.1674184807
 20
-541.9942782264
 10
1129.9179921948
 20
-550.2487392286
 10
1129.4194538979
 20
-558.6316776278
 10
1128.6724317441
 20
-567.1325309933
 10
1127.6778669748
 20
-575.7405883226
 10
1126.4370127332
 20
-584.445003537
 10
1124.951432485
 20
-593.2348091477
 10
1123.2229980487
 20
-602.098930075
 10
1121.2538872368
 20
-611.0261976021
 10
1119.0465811121
 20
-620.0053634483
 10
1116.6038608614
 20
-629.0251139414
 10
1113.9288042915
 20
-638.074084273
 10
1111.0247819507
 20
-647.1408728177
 10
1107.8954528823
 20
-656.2140554996
 10
1104.5447600142
 20
-665.282200186
 10
1100.9769251907
 20
-674.3338810921
 10
1097.1964438533
 20
-683.3576931774
 10
1093.2080793761
 20
-692.3422665159
 10
1089.0168570642
 20
-701.2762806219
 10
1084.6280578219
 20
-710.1484787141
 10
1080.0472114988
 20
-718.9476818987
 10
1075.280089922
 20
-727.6628032549
 10
1070.3326996239
 20
-736.2828618043
 10
1065.2112742741
 20
-744.7969963469
 10
1059.9222668247
 20
-753.194479146
 10
1054.4723413798
 20
-761.4647294449
 10
1048.868364799
 20
-769.5973267991
 10
1043.1173980448
 20
-777.5820242055
 10
1037.2266872861
 20
-785.4087610134
 10
1031.2036547681
 20
-793.0676756016
 10
1025.0558894603
 20
-800.549117803
 10
1018.7911374945
 20
-807.8436610646
 10
1012.4172924045
 20
-814.942114324
 10
1005.9423851807
 20
-821.8355335911
 10
999.3745741507
 20
-828.5152332163
 10
992.7221347004
 20
-834.9727968352
 10
985.9934488466
 20
-841.200087973
 10
979.1969946759
 20
-847.1892602961
 10
972.3413356625
 20
-852.9327674984
 10
965.4351098781
 20
-858.4233728101
 10
958.4870191081
 20
-863.6541581154
 10
951.5058178875
 20
-868.6185326695
 10
944.5003024702
 20
-873.310241403
 10
937.4792997457
 20
-877.723372803
 10
930.4516561173
 20
-881.8523663615
 10
923.4262263561
 20
-885.6920195821
 10
916.4118624433
 20
-889.2374945346
 10
909.4174024176
 20
-892.4843239507
 10
902.4516592388
 20
-895.4284168532
 10
895.5234096838
 20
-898.0660637101
 10
888.6413832877
 20
-900.3939411091
 10
881.8142513449
 20
-902.4091159445
 10
875.0506159834
 20
-904.1090491132
 10
868.3589993259
 20
-905.491598714
 10
861.7478327521
 20
-906.5550227462
 10
855.2254462754
 20
-907.2979813046
 10
848.800058047
 20
-907.7195382678
 10
842.4797640011
 20
-907.8191624775
 10
836.2725276542
 20
-907.5967284083
 10
830.186170071
 20
-907.052516325
 10
824.2283600101
 20
-906.1872119302
 10
818.4066042611
 20
-905.0019055001
 10
812.7282381865
 20
-903.4980905107
 10
807.2004164791
 20
-901.677661756
 10
801.8301041469
 20
-899.5429129606
 10
796.6240677375
 20
-897.0965338898
 10
792.2200828329
 20
-894.7093007262
  0
LWPOLYLINE
  5
BD
330
1F
100
AcDbEntity
  8
0
  6
Continuous
 62
     7
370
    25
100
AcDbPolyline
 90
      178
 70
   128
 43
0.0
 10
703.8132150787
 20
-748.9599805106
 10
703.9379478685
 20
-740.7736690452
 10
704.3119890757
 20
-732.4536588486
 10
704.9348674114
 20
-724.0104330625
 10
705.8057980544
 20
-715.4546300791
 10
706.9236836395
 20
-706.7970301372
 10
708.2871156404
 20
-698.0485417385
 10
709.8943761444
 20
-689.2201879037
 10
711.7434400171
 20
-680.3230922831
 10
713.8319774537
 20
-671.3684651412
 10
716.157356915
 20
-662.3675892315
 10
718.7166484427
 20
-653.3318055808
 10
721.5066273514
 20
-644.2724991992
 10
724.5237782915
 20
-635.2010847353
 10
727.7642996786
 20
-626.1289920937
 10
731.2241084835
 20
-617.0676520337
 10
734.8988453766
 20
-608.0284817662
 10
738.783880221
 20
-599.0228705684
 10
742.8743179058
 20
-590.0621654335
 10
747.1650045147
 20
-581.1576567734
 10
751.6505338191
 20
-572.3205641928
 10
756.3252540905
 20
-563.5620223527
 10
761.1832752214
 20
-554.8930669412
 10
766.2184761465
 20
-546.3246207677
 10
771.4245125559
 20
-537.8674800014
 10
776.7948248881
 20
-529.5323005671
 10
782.3226465955
 20
-521.3295847198
 10
788.0010126701
 20
-513.2696678112
 10
793.8227684191
 20
-505.3627052679
 10
799.78057848
 20
-497.6186597948
 10
805.8669360632
 20
-490.0472888233
 10
812.0741724101
 20
-482.6581322159
 10
818.394466456
 20
-475.4605002467
 10
824.8198546844
 20
-468.4634618706
 10
831.3422411611
 20
-461.6758332961
 10
837.9534077349
 20
-455.106166877
 10
844.6450243924
 20
-448.7627403371
 10
851.4086597539
 20
-442.6535463393
 10
858.2357916966
 20
-436.7862824161
 10
865.1178180927
 20
-431.1683412696
 10
872.0460676478
 20
-425.8068014578
 10
879.0118108266
 20
-420.708418475
 10
886.0062708523
 20
-415.8796162401
 10
893.020634765
 20
-411.3264790026
 10
900.0460645263
 20
-407.0547436767
 10
907.0737081546
 20
-403.0697926121
 10
914.0947108792
 20
-399.3766468133
 10
921.1002262965
 20
-395.9799596123
 10
928.0814275171
 20
-392.8840108059
 10
935.029518287
 20
-390.0927012633
 10
941.9357440715
 20
-387.6095480105
 10
948.7914030849
 20
-385.4376797995
 10
955.5878572556
 20
-383.5798331655
 10
962.3165431094
 20
-382.0383489795
 10
968.9689825597
 20
-380.8151694984
 10
975.5367935897
 20
-379.9118359178
 10
982.0117008135
 20
-379.3294864304
 10
988.3855459035
 20
-379.0688547915
 10
994.6502978693
 20
-379.1302693948
 10
1000.7980631771
 20
-379.5136528583
 10
1006.8210956951
 20
-380.2185221222
 10
1012.7118064538
 20
-381.2439890573
 10
1018.462773208
 20
-382.5887615839
 10
1024.0667497888
 20
-384.2511453003
 10
1029.5166752337
 20
-386.2290456171
 10
1034.8056826831
 20
-388.5199703968
 10
1039.9271080329
 20
-391.1210330938
 10
1044.8744983309
 20
-394.0289563913
 10
1049.6416199077
 20
-397.2400763309
 10
1054.2224662309
 20
-400.7503469289
 10
1058.6112654732
 20
-404.5553452743
 10
1062.8024877851
 20
-408.6502771017
 10
1066.7908522623
 20
-413.0299828322
 10
1070.5713335997
 20
-417.6889440738
 10
1074.1391684231
 20
-422.6212905753
 10
1077.4898612913
 20
-427.8208076222
 10
1080.6191903597
 20
-433.2809438675
 10
1083.5232127005
 20
-438.9948195863
 10
1086.1982692704
 20
-444.9552353439
 10
1088.6409895211
 20
-451.1546810676
 10
1090.8482956458
 20
-457.5853455086
 10
1092.8174064577
 20
-464.2391260848
 10
1094.545840894
 20
-471.1076390895
 10
1096.0314211422
 20
-478.1822302551
 10
1097.2722753838
 20
-485.4539856572
 10
1098.2668401531
 20
-492.9137429461
 10
1099.0138623069
 20
-500.5521028915
 10
1099.5124006038
 20
-508.3594412251
 10
1099.7618268897
 20
-516.3259207674
 10
1099.7618268897
 20
-524.4415038222
 10
1099.5124006038
 20
-532.6959648244
 10
1099.0138623069
 20
-541.0789032236
 10
1098.2668401531
 20
-549.5797565891
 10
1097.2722753838
 20
-558.1878139184
 10
1096.0314211422
 20
-566.8922291328
 10
1094.545840894
 20
-575.6820347436
 10
1092.8174064577
 20
-584.5461556708
 10
1090.8482956457
 20
-593.4734231979
 10
1088.6409895211
 20
-602.4525890441
 10
1086.1982692704
 20
-611.4723395372
 10
1083.5232127005
 20
-620.5213098688
 10
1080.6191903597
 20
-629.5880984135
 10
1077.4898612913
 20
-638.6612810954
 10
1074.1391684231
 20
-647.7294257818
 10
1070.5713335997
 20
-656.7811066879
 10
1066.7908522623
 20
-665.8049187733
 10
1062.8024877851
 20
-674.7894921117
 10
1058.6112654732
 20
-683.7235062177
 10
1054.2224662309
 20
-692.5957043099
 10
1049.6416199077
 20
-701.3949074945
 10
1044.8744983309
 20
-710.1100288507
 10
1039.9271080329
 20
-718.7300874001
 10
1034.8056826831
 20
-727.2442219427
 10
1029.5166752337
 20
-735.6417047418
 10
1024.0667497888
 20
-743.9119550407
 10
1018.462773208
 20
-752.0445523949
 10
1012.7118064538
 20
-760.0292498013
 10
1006.8210956951
 20
-767.8559866092
 10
1000.7980631771
 20
-775.5149011974
 10
994.6502978693
 20
-782.9963433988
 10
988.3855459035
 20
-790.2908866604
 10
982.0117008135
 20
-797.3893399199
 10
975.5367935897
 20
-804.2827591869
 10
968.9689825597
 20
-810.9624588121
 10
962.3165431094
 20
-817.420022431
 10
955.5878572556
 20
-823.6473135688
 10
948.7914030849
 20
-829.6364858919
 10
941.9357440715
 20
-835.3799930942
 10
935.029518287
 20
-840.8705984059
 10
928.0814275171
 20
-846.1013837112
 10
921.1002262965
 20
-851.0657582654
 10
914.0947108792
 20
-855.7574669988
 10
907.0737081546
 20
-860.1705983988
 10
900.0460645263
 20
-864.2995919573
 10
893.020634765
 20
-868.1392451779
 10
886.0062708523
 20
-871.6847201304
 10
879.0118108266
 20
-874.9315495465
 10
872.0460676478
 20
-877.875642449
 10
865.1178180927
 20
-880.513289306
 10
858.2357916966
 20
-882.841166705
 10
851.4086597539
 20
-884.8563415403
 10
844.6450243924
 20
-886.5562747091
 10
837.9534077349
 20
-887.9388243098
 10
831.3422411611
 20
-889.002248342
 10
824.8198546844
 20
-889.7452069004
 10
818.394466456
 20
-890.1667638636
 10
812.0741724101
 20
-890.2663880733
 10
805.8669360632
 20
-890.0439540041
 10
799.78057848
 20
-889.4997419208
 10
793.8227684191
 20
-888.634437526
 10
788.0010126701
 20
-887.4491310959
 10
782.3226465955
 20
-885.9453161065
 10
776.7948248881
 20
-884.1248873518
 10
771.4245125559
 20
-881.9901385564
 10
766.2184761465
 20
-879.5437594857
 10
761.1832752214
 20
-876.7888325562
 10
756.3252540905
 20
-873.7288289523
 10
751.6505338191
 20
-870.3676042526
 10
747.1650045147
 20
-866.7093935712
 10
742.8743179058
 20
-862.7588062225
 10
738.783880221
 20
-858.5208199127
 10
734.8988453766
 20
-854.0007744682
 10
731.2241084835
 20
-849.2043651079
 10
727.7642996786
 20
-844.1376352663
 10
724.5237782915
 20
-838.8069689798
 10
721.5066273514
 20
-833.2190828423
 10
718.7166484427
 20
-827.3810175426
 10
716.157356915
 20
-821.3001289931
 10
713.8319774537
 20
-814.9840790613
 10
711.7434400171
 20
-808.4408259162
 10
709.8943761444
 20
-801.6786140007
 10
708.2871156404
 20
-794.705963644
 10
706.9236836395
 20
-787.5316603261
 10
705.8057980544
 20
-780.1647436077
 10
704.9348674114
 20
-772.6144957409
 10
704.3119890757
 20
-764.8904299735
 10
703.9379478685
 20
-757.0022785623
 10
703.8132150787
 20
-748.9599805106
  0
LWPOLYLINE
  5
BE
330
1F
100
AcDbEntity
  8
0
  6
Continuous
 62
     7
370
    25
100
AcDbPolyline
 90
      161
 70
   128
 43
0.0
 10
739.734239563
 20
-728.2232144703
 10
739.8591887916
 20
-720.8035629876
 10
740.2338438146
 20
-713.2510887611
 10
740.8576269411
 20
-705.5774371587
 10
741.7295763429
 20
-697.794440395
 10
742.8483475371
 20
-689.9140992868
 10
744.2122154595
 20
-681.948564749
 10
745.8190771249
 20
-673.9101190584
 10
747.6664548688
 20
-665.8111569157
 10
749.7515001688
 20
-657.6641663335
 10
752.0709980361
 20
-649.4817093808
 10
754.6213719732
 20
-641.276402813
 10
757.3986894882
 20
-633.0608986182
 10
760.3986681588
 20
-624.8478645085
 10
763.6166822355
 20
-616.649964387
 10
767.0477697737
 20
-608.4798388215
 10
770.6866402852
 20
-600.3500855537
 10
774.5276828953
 20
-592.2732400736
 10
778.5649749947
 20
-584.2617562916
 10
782.7922913718
 20
-576.327987335
 10
787.203113811
 20
-568.4841665006
 10
791.7906411438
 20
-560.7423883914
 10
796.5477997356
 20
-553.1145902683
 10
801.4672543926
 20
-545.612533643
 10
806.5414196724
 20
-538.2477861431
 10
811.7624715798
 20
-531.0317036754
 10
817.1223596313
 20
-523.9754129161
 10
822.6128192679
 20
-517.089794154
 10
828.2253845989
 20
-510.3854645143
 10
833.9514014553
 20
-503.8727615872
 10
839.7820407342
 20
-497.5617274887
 10
845.7083120124
 20
-491.4620933759
 10
851.7210774091
 20
-485.5832644425
 10
857.811065676
 20
-479.9343054165
 10
863.9688864924
 20
-474.5239265835
 10
870.1850449451
 20
-469.3604703553
 10
876.4499561683
 20
-464.4518984072
 10
882.7539601229
 20
-459.8057794014
 10
889.0873364918
 20
-455.4292773167
 10
895.4403196677
 20
-451.329140402
 10
901.803113811
 20
-447.5116907712
 10
908.1659079542
 20
-443.9828146551
 10
914.5188911301
 20
-440.7479533248
 10
920.852267499
 20
-437.812094702
 10
927.1562714536
 20
-435.1797656679
 10
933.4211826768
 20
-432.855025083
 10
939.6373411295
 20
-430.841457529
 10
945.795161946
 20
-429.1421677809
 10
951.8851502128
 20
-427.7597760205
 10
957.8979156095
 20
-426.6964137955
 10
963.8241868877
 20
-425.9537207336
 10
969.6548261666
 20
-425.5328420135
 10
975.380843023
 20
-425.4344265997
 10
980.993408354
 20
-425.6586262417
 10
986.4838679907
 20
-426.2050952399
 10
991.8437560421
 20
-427.0729909787
 10
997.0648079496
 20
-428.2609752258
 10
1002.1389732293
 20
-429.7672161955
 10
1007.0584278864
 20
-431.5893913734
 10
1011.8155864782
 20
-433.7246910976
 10
1016.403113811
 20
-436.1698228906
 10
1020.8139362501
 20
-438.9210165364
 10
1025.0412526272
 20
-441.9740298938
 10
1029.0785447267
 20
-445.3241554375
 10
1032.9195873368
 20
-448.9662275168
 10
1036.5584578482
 20
-452.8946303204
 10
1039.9895453864
 20
-457.103306536
 10
1043.2075594631
 20
-461.58576669
 10
1046.2075381338
 20
-466.3350991536
 10
1048.9848556488
 20
-471.3439808004
 10
1051.5352295858
 20
-476.604688298
 10
1053.8547274531
 20
-482.1091100168
 10
1055.9397727531
 20
-487.8487585373
 10
1057.7871504971
 20
-493.8147837377
 10
1059.3940121624
 20
-499.9979864394
 10
1060.7578800849
 20
-506.3888325921
 10
1061.8766512791
 20
-512.9774679742
 10
1062.7486006808
 20
-519.7537333876
 10
1063.3723838074
 20
-526.707180322
 10
1063.7470388304
 20
-533.8270870664
 10
1063.8719880589
 20
-541.1024752405
 10
1063.7470388304
 20
-548.5221267233
 10
1063.3723838074
 20
-556.0746009497
 10
1062.7486006808
 20
-563.7482525521
 10
1061.8766512791
 20
-571.5312493159
 10
1060.7578800849
 20
-579.411590424
 10
1059.3940121624
 20
-587.3771249619
 10
1057.7871504971
 20
-595.4155706524
 10
1055.9397727531
 20
-603.5145327951
 10
1053.8547274531
 20
-611.6615233773
 10
1051.5352295858
 20
-619.8439803301
 10
1048.9848556488
 20
-628.0492868978
 10
1046.2075381338
 20
-636.2647910926
 10
1043.2075594631
 20
-644.4778252024
 10
1039.9895453864
 20
-652.6757253239
 10
1036.5584578482
 20
-660.8458508893
 10
1032.9195873368
 20
-668.9756041572
 10
1029.0785447267
 20
-677.0524496373
 10
1025.0412526272
 20
-685.0639334193
 10
1020.8139362501
 20
-692.9977023758
 10
1016.403113811
 20
-700.8415232103
 10
1011.8155864782
 20
-708.5833013194
 10
1007.0584278864
 20
-716.2110994426
 10
1002.1389732293
 20
-723.7131560679
 10
997.0648079496
 20
-731.0779035678
 10
991.8437560421
 20
-738.2939860355
 10
986.4838679907
 20
-745.3502767948
 10
980.993408354
 20
-752.2358955568
 10
975.380843023
 20
-758.9402251966
 10
969.6548261666
 20
-765.4529281236
 10
963.8241868877
 20
-771.7639622221
 10
957.8979156095
 20
-777.8635963349
 10
951.8851502128
 20
-783.7424252684
 10
945.795161946
 20
-789.3913842943
 10
939.6373411295
 20
-794.8017631274
 10
933.4211826768
 20
-799.9652193556
 10
927.1562714536
 20
-804.8737913037
 10
920.852267499
 20
-809.5199103094
 10
914.5188911301
 20
-813.8964123942
 10
908.1659079542
 20
-817.9965493089
 10
901.803113811
 20
-821.8139989396
 10
895.4403196677
 20
-825.3428750558
 10
889.0873364918
 20
-828.5777363861
 10
882.7539601229
 20
-831.5135950089
 10
876.4499561683
 20
-834.145924043
 10
870.1850449451
 20
-836.4706646278
 10
863.9688864924
 20
-838.4842321819
 10
857.811065676
 20
-840.1835219299
 10
851.7210774091
 20
-841.5659136904
 10
845.7083120124
 20
-842.6292759153
 10
839.7820407342
 20
-843.3719689773
 10
833.9514014553
 20
-843.7928476974
 10
828.2253845989
 20
-843.8912631111
 10
822.6128192679
 20
-843.6670634691
 10
817.1223596313
 20
-843.1205944709
 10
811.7624715798
 20
-842.2526987321
 10
806.5414196724
 20
-841.0647144851
 10
801.4672543926
 20
-839.5584735154
 10
796.5477997356
 20
-837.7362983374
 10
791.7906411438
 20
-835.6009986133
 10
787.203113811
 20
-833.1558668203
 10
782.7922913718
 20
-830.4046731745
 10
778.5649749947
 20
-827.3516598171
 10
774.5276828953
 20
-824.0015342733
 10
770.6866402852
 20
-820.3594621941
 10
767.0477697737
 20
-816.4310593904
 10
763.6166822355
 20
-812.2223831748
 10
760.3986681588
 20
-807.7399230209
 10
757.3986894882
 20
-802.9905905573
 10
754.6213719732
 20
-797.9817089105
 10
752.0709980361
 20
-792.7210014128
 10
749.7515001688
 20
-787.2165796941
 10
747.6664548688
 20
-781.4769311735
 10
745.8190771249
 20
-775.5109059732
 10
744.2122154595
 20
-769.3277032715
 10
742.8483475371
 20
-762.9368571188
 10
741.7295763429
 20
-756.3482217366
 10
740.8576269411
 20
-749.5719563233
 10
740.2338438146
 20
-742.6185093888
 10
739.8591887916
 20
-735.4986026445
 10
739.734239563
 20
-728.2232144703
  0
LWPOLYLINE
  5
BF
330
1F
100
AcDbEntity
  8
0
  6
Continuous
 62
     7
370
    25
100
AcDbPolyline
 90
       52
 70
   128
 43
0.0
 10
824.0213678805
 20
-776.8811379349
 10
824.146317109
 20
-769.4614864522
 10
824.520972132
 20
-761.9090122257
 10
825.1447552586
 20
-754.2353606234
 10
826.0167046603
 20
-746.4523638596
 10
827.1354758545
 20
-738.5720227514
 10
828.499343777
 20
-730.6064882136
 10
830.1062054423
 20
-722.5680425231
 10
831.9535831863
 20
-714.4690803804
 10
834.0386284863
 20
-706.3220897982
 10
836.3581263536
 20
-698.1396328454
 10
838.9085002906
 20
-689.9343262776
 10
841.6858178056
 20
-681.7188220829
 10
844.6857964763
 20
-673.5057879731
 10
847.9038105529
 20
-665.3078878516
 10
851.3348980911
 20
-657.1377622862
 10
854.9737686026
 20
-649.0080090183
 10
858.8148112127
 20
-640.9311635382
 10
862.8521033122
 20
-632.9196797562
 10
867.0794196892
 20
-624.9859107997
 10
871.4902421284
 20
-617.1420899652
 10
876.0777694612
 20
-609.4003118561
 10
880.834928053
 20
-601.7725137329
 10
885.75438271
 20
-594.2704571076
 10
890.8285479898
 20
-586.9057096077
 10
896.0495998972
 20
-579.68962714
 10
901.4094879487
 20
-572.6333363807
 10
906.8999475854
 20
-565.7477176187
 10
912.5125129164
 20
-559.0433879789
 10
918.2385297728
 20
-552.5306850519
 10
924.0691690517
 20
-546.2196509534
 10
929.9954403298
 20
-540.1200168405
 10
936.0082057266
 20
-534.2411879071
 10
942.0981939934
 20
-528.5922288812
 10
948.2560148099
 20
-523.1818500481
 10
954.4721732626
 20
-518.0183938199
 10
960.7370844858
 20
-513.1098218718
 10
967.0410884404
 20
-508.463702866
 10
973.3744648093
 20
-504.0872007813
 10
979.7274479852
 20
-499.9870638666
 10
986.0902421284
 20
-496.1696142358
 10
992.4530362717
 20
-492.6407381197
 10
998.8060194475
 20
-489.4058767894
 10
1005.1393958164
 20
-486.4700181666
 10
1011.4433997711
 20
-483.8376891325
 10
1017.7083109942
 20
-481.5129485477
 10
1023.9244694469
 20
-479.4993809936
 10
1030.0822902634
 20
-477.8000912456
 10
1036.1722785302
 20
-476.4176994851
 10
1042.185043927
 20
-475.3543372602
 10
1048.1113152052
 20
-474.6116441982
 10
1050.5089730099
 20
-474.4004965541
  0
LWPOLYLINE
  5
C0
330
1F
100
AcDbEntity
  8
0
  6
Continuous
 62
     7
370
    25
100
AcDbPolyline
 90
       12
 70
   128
 43
0.0
 10
837.3843829295
 20
-843.5831166214
 10
836.3581263536
 20
-841.3789248775
 10
834.0386284863
 20
-835.8745031587
 10
831.9535831863
 20
-830.1348546382
 10
830.1062054423
 20
-824.1688294378
 10
828.499343777
 20
-817.9856267361
 10
827.1354758545
 20
-811.5947805834
 10
826.0167046603
 20
-805.0061452013
 10
825.1447552586
 20
-798.2298797879
 10
824.520972132
 20
-791.2764328535
 10
824.146317109
 20
-784.1565261091
 10
824.0213678805
 20
-776.8811379349
  0
LWPOLYLINE
  5
C1
330
1F
100
AcDbEntity
  8
0
  6
Continuous
 62
     7
370
    25
100
AcDbPolyline
 90
       40
 70
   128
 43
0.0
 10
825.2883331184
 20
-799.5052585719
 10
826.0170071106
 20
-792.4109432417
 10
827.1367047317
 20
-783.6009664979
 10
828.5024419953
 20
-774.6990516723
 10
830.1125549608
 20
-765.716044377
 10
831.9650819536
 20
-756.6628890226
 10
834.057765955
 20
-747.5506154844
 10
836.3880573518
 20
-738.3903256642
 10
838.953117043
 20
-729.1931799639
 10
841.7498198984
 20
-719.9703836889
 10
844.7747585664
 20
-710.7331733958
 10
848.0242476251
 20
-701.4928032025
 10
851.4943280728
 20
-692.2605310767
 10
855.1807721508
 20
-683.0476051198
 10
859.079088495
 20
-673.865249863
 10
863.1845276074
 20
-664.7246525917
 10
867.4920876428
 20
-655.6369497158
 10
871.9965205028
 20
-646.6132132012
 10
876.6923382299
 20
-637.664437081
 10
881.5738196935
 20
-628.8015240603
 10
886.6350175603
 20
-620.0352722336
 10
891.8697655404
 20
-611.3763619282
 10
897.2716858997
 20
-602.8353426927
 10
902.8341972303
 20
-594.4226204432
 10
908.5505224691
 20
-586.148444786
 10
914.4136971542
 20
-578.0228965296
 10
920.4165779106
 20
-570.0558754029
 10
926.5518511525
 20
-562.2570879939
 10
932.8120419947
 20
-554.6360359237
 10
939.1895233589
 20
-547.2020042703
 10
945.6765252665
 20
-539.9640502563
 10
952.2651443049
 20
-532.9309922136
 10
958.9473532566
 20
-526.1113988402
 10
965.7150108795
 20
-519.51357876
 10
972.5598718251
 20
-513.1455704005
 10
979.4735966847
 20
-507.015132199
 10
986.4477621496
 20
-501.1297331501
 10
993.4738712735
 20
-495.496543706
 10
1000.5433638247
 20
-490.1224270402
 10
1006.2894885764
 20
-485.9680886847
  0
ENDSEC
  0
SECTION
  2
OBJECTS
  0
DICTIONARY
  5
C
330
0
100
AcDbDictionary
281
     1
  3
ACAD_GROUP
350
D
  3
ACAD_LAYOUT
350
1A
  3
ACAD_MLINESTYLE
350
17
  3
ACAD_PLOTSETTINGS
350
19
  3
ACAD_PLOTSTYLENAME
350
E
  3
ACAD_SCALELIST
350
47
  0
DICTIONARY
  5
D
102
{ACAD_REACTORS
330
C
102
}
330
C
100
AcDbDictionary
281
     1
  0
DICTIONARY
  5
1A
102
{ACAD_REACTORS
330
C
102
}
330
C
100
AcDbDictionary
281
     1
  3
Layout1
350
1E
  3
Layout2
350
26
  3
Model
350
22
  0
DICTIONARY
  5
17
102
{ACAD_REACTORS
330
C
102
}
330
C
100
AcDbDictionary
281
     1
  3
Standard
350
18
  0
DICTIONARY
  5
19
102
{ACAD_REACTORS
330
C
102
}
330
C
100
AcDbDictionary
281
     1
  0
ACDBDICTIONARYWDFLT
  5
E
102
{ACAD_REACTORS
330
C
102
}
330
C
100
AcDbDictionary
281
     1
  3
Normal
350
F
100
AcDbDictionaryWithDefault
340
F
  0
DICTIONARY
  5
47
102
{ACAD_REACTORS
330
C
102
}
330
C
100
AcDbDictionary
281
     1
  3
A0
350
48
  3
A1
350
49
  3
A2
350
4A
  3
A3
350
4B
  3
A4
350
4C
  3
A5
350
4D
  3
A6
350
4E
  3
A7
350
4F
  3
A8
350
50
  3
A9
350
51
  3
B0
350
52
  3
B1
350
53
  3
B2
350
54
  3
B3
350
55
  3
B4
350
56
  3
B5
350
57
  3
B6
350
58
  3
B7
350
59
  3
B8
350
5A
  3
B9
350
5B
  3
C0
350
5C
  3
C1
350
5D
  3
C2
350
5E
  3
C3
350
5F
  3
C4
350
60
  3
C5
350
61
  3
C6
350
62
  3
C7
350
63
  3
C8
350
64
  3
C9
350
65
  3
D0
350
66
  3
D1
350
67
  3
D2
350
68
  0
LAYOUT
  5
1E
102
{ACAD_REACTORS
330
1A
102
}
330
1A
100
AcDbPlotSettings
  1

  2
none_device
  4

  6

 40
0.0
 41
0.0
 42
0.0
 43
0.0
 44
0.0
 45
0.0
 46
0.0
 47
0.0
 48
0.0
 49
0.0
140
0.0
141
0.0
142
1.0
143
1.0
 70
   688
 72
     1
 73
     0
 74
     5
  7

 75
    16
147
1.0
148
0.0
149
0.0
100
AcDbLayout
  1
Layout1
 70
     1
 71
     1
 10
0.0
 20
0.0
 11
420.0
 21
297.0
 12
0.0
 22
0.0
 32
0.0
 14
1.0000000000E+20
 24
1.0000000000E+20
 34
1.0000000000E+20
 15
-1.0000000000E+20
 25
-1.0000000000E+20
 35
-1.0000000000E+20
146
0.0
 13
0.0
 23
0.0
 33
0.0
 16
1.0
 26
0.0
 36
0.0
 17
0.0
 27
1.0
 37
0.0
 76
     0
330
1B
  0
LAYOUT
  5
26
102
{ACAD_REACTORS
330
1A
102
}
330
1A
100
AcDbPlotSettings
  1

  2
none_device
  4

  6

 40
0.0
 41
0.0
 42
0.0
 43
0.0
 44
0.0
 45
0.0
 46
0.0
 47
0.0
 48
0.0
 49
0.0
140
0.0
141
0.0
142
1.0
143
1.0
 70
   688
 72
     1
 73
     0
 74
     5
  7

 75
    16
147
1.0
148
0.0
149
0.0
100
AcDbLayout
  1
Layout2
 70
     1
 71
     2
 10
0.0
 20
0.0
 11
0.0
 21
0.0
 12
0.0
 22
0.0
 32
0.0
 14
0.0
 24
0.0
 34
0.0
 15
0.0
 25
0.0
 35
0.0
146
0.0
 13
0.0
 23
0.0
 33
0.0
 16
1.0
 26
0.0
 36
0.0
 17
0.0
 27
1.0
 37
0.0
 76
     0
330
23
  0
LAYOUT
  5
22
102
{ACAD_REACTORS
330
1A
102
}
330
1A
100
AcDbPlotSettings
  1

  2
none_device
  4
Letter_(8.50_x_11.00_Inches)
  6

 40
6.35
 41
6.35
 42
6.35000508
 43
6.35000508
 44
215.9
 45
279.4
 46
0.0
 47
0.0
 48
0.0
 49
0.0
140
0.0
141
0.0
142
1.0
143
1.0
 70
  1712
 72
     1
 73
     0
 74
     0
  7

 75
     0
147
1.0
148
0.0
149
0.0
100
AcDbLayout
  1
Model
 70
     1
 71
     0
 10
0.0
 20
0.0
 11
279.4
 21
215.9
 12
0.0
 22
0.0
 32
0.0
 14
0.0
 24
0.0
 34
0.0
 15
279.4
 25
215.9
 35
0.0
146
0.0
 13
0.0
 23
0.0
 33
0.0
 16
1.0
 26
0.0
 36
0.0
 17
0.0
 27
1.0
 37
0.0
 76
     0
330
1F
331
29
  0
MLINESTYLE
  5
18
102
{ACAD_REACTORS
330
17
102
}
330
17
100
AcDbMlineStyle
  2
Standard
 70
     0
  3

 62
   256
 51
90.0
 52
90.0
 71
     2
 49
0.5
 62
   256
  6
BYLAYER
 49
-0.5
 62
   256
  6
BYLAYER
  0
ACDBPLACEHOLDER
  5
F
102
{ACAD_REACTORS
330
E
102
}
330
E
  0
SCALE
  5
48
102
{ACAD_REACTORS
330
47
102
}
330
47
100
AcDbScale
 70
     0
300
1:1
140
1.0
141
1.0
290
     1
  0
SCALE
  5
49
102
{ACAD_REACTORS
330
47
102
}
330
47
100
AcDbScale
 70
     0
300
1:2
140
1.0
141
2.0
290
     0
  0
SCALE
  5
4A
102
{ACAD_REACTORS
330
47
102
}
330
47
100
AcDbScale
 70
     0
300
1:4
140
1.0
141
4.0
290
     0
  0
SCALE
  5
4B
102
{ACAD_REACTORS
330
47
102
}
330
47
100
AcDbScale
 70
     0
300
1:5
140
1.0
141
5.0
290
     0
  0
SCALE
  5
4C
102
{ACAD_REACTORS
330
47
102
}
330
47
100
AcDbScale
 70
     0
300
1:8
140
1.0
141
8.0
290
     0
  0
SCALE
  5
4D
102
{ACAD_REACTORS
330
47
102
}
330
47
100
AcDbScale
 70
     0
300
1:10
140
1.0
141
10.0
290
     0
  0
SCALE
  5
4E
102
{ACAD_REACTORS
330
47
102
}
330
47
100
AcDbScale
 70
     0
300
1:16
140
1.0
141
16.0
290
     0
  0
SCALE
  5
4F
102
{ACAD_REACTORS
330
47
102
}
330
47
100
AcDbScale
 70
     0
300
1:20
140
1.0
141
20.0
290
     0
  0
SCALE
  5
50
102
{ACAD_REACTORS
330
47
102
}
330
47
100
AcDbScale
 70
     0
300
1:30
140
1.0
141
30.0
290
     0
  0
SCALE
  5
51
102
{ACAD_REACTORS
330
47
102
}
330
47
100
AcDbScale
 70
     0
300
1:40
140
1.0
141
40.0
290
     0
  0
SCALE
  5
52
102
{ACAD_REACTORS
330
47
102
}
330
47
100
AcDbScale
 70
     0
300
1:50
140
1.0
141
50.0
290
     0
  0
SCALE
  5
53
102
{ACAD_REACTORS
330
47
102
}
330
47
100
AcDbScale
 70
     0
300
1:100
140
1.0
141
100.0
290
     0
  0
SCALE
  5
54
102
{ACAD_REACTORS
330
47
102
}
330
47
100
AcDbScale
 70
     0
300
2:1
140
2.0
141
1.0
290
     0
  0
SCALE
  5
55
102
{ACAD_REACTORS
330
47
102
}
330
47
100
AcDbScale
 70
     0
300
4:1
140
4.0
141
1.0
290
     0
  0
SCALE
  5
56
102
{ACAD_REACTORS
330
47
102
}
330
47
100
AcDbScale
 70
     0
300
8:1
140
8.0
141
1.0
290
     0
  0
SCALE
  5
57
102
{ACAD_REACTORS
330
47
102
}
330
47
100
AcDbScale
 70
     0
300
10:1
140
10.0
141
1.0
290
     0
  0
SCALE
  5
58
102
{ACAD_REACTORS
330
47
102
}
330
47
100
AcDbScale
 70
     0
300
100:1
140
100.0
141
1.0
290
     0
  0
SCALE
  5
59
102
{ACAD_REACTORS
330
47
102
}
330
47
100
AcDbScale
 70
     0
300
1/128" = 1'-0"
140
0.0078125
141
12.0
290
     0
  0
SCALE
  5
5A
102
{ACAD_REACTORS
330
47
102
}
330
47
100
AcDbScale
 70
     0
300
1/64" = 1'-0"
140
0.015625
141
12.0
290
     0
  0
SCALE
  5
5B
102
{ACAD_REACTORS
330
47
102
}
330
47
100
AcDbScale
 70
     0
300
1/32" = 1'-0"
140
0.03125
141
12.0
290
     0
  0
SCALE
  5
5C
102
{ACAD_REACTORS
330
47
102
}
330
47
100
AcDbScale
 70
     0
300
1/16" = 1'-0"
140
0.0625
141
12.0
290
     0
  0
SCALE
  5
5D
102
{ACAD_REACTORS
330
47
102
}
330
47
100
AcDbScale
 70
     0
300
3/32" = 1'-0"
140
0.09375
141
12.0
290
     0
  0
SCALE
  5
5E
102
{ACAD_REACTORS
330
47
102
}
330
47
100
AcDbScale
 70
     0
300
1/8" = 1'-0"
140
0.125
141
12.0
290
     0
  0
SCALE
  5
5F
102
{ACAD_REACTORS
330
47
102
}
330
47
100
AcDbScale
 70
     0
300
3/16" = 1'-0"
140
0.1875
141
12.0
290
     0
  0
SCALE
  5
60
102
{ACAD_REACTORS
330
47
102
}
330
47
100
AcDbScale
 70
     0
300
1/4" = 1'-0"
140
0.25
141
12.0
290
     0
  0
SCALE
  5
61
102
{ACAD_REACTORS
330
47
102
}
330
47
100
AcDbScale
 70
     0
300
3/8" = 1'-0"
140
0.375
141
12.0
290
     0
  0
SCALE
  5
62
102
{ACAD_REACTORS
330
47
102
}
330
47
100
AcDbScale
 70
     0
300
1/2" = 1'-0"
140
0.5
141
12.0
290
     0
  0
SCALE
  5
63
102
{ACAD_REACTORS
330
47
102
}
330
47
100
AcDbScale
 70
     0
300
3/4" = 1'-0"
140
0.75
141
12.0
290
     0
  0
SCALE
  5
64
102
{ACAD_REACTORS
330
47
102
}
330
47
100
AcDbScale
 70
     0
300
1" = 1'-0"
140
1.0
141
12.0
290
     0
  0
SCALE
  5
65
102
{ACAD_REACTORS
330
47
102
}
330
47
100
AcDbScale
 70
     0
300
1-1/2" = 1'-0"
140
1.5
141
12.0
290
     0
  0
SCALE
  5
66
102
{ACAD_REACTORS
330
47
102
}
330
47
100
AcDbScale
 70
     0
300
3" = 1'-0"
140
3.0
141
12.0
290
     0
  0
SCALE
  5
67
102
{ACAD_REACTORS
330
47
102
}
330
47
100
AcDbScale
 70
     0
300
6" = 1'-0"
140
6.0
141
12.0
290
     0
  0
SCALE
  5
68
102
{ACAD_REACTORS
330
47
102
}
330
47
100
AcDbScale
 70
     0
300
1'-0" = 1'-0"
140
12.0
141
12.0
290
     0
  0
ENDSEC
  0
EOF
